Free Daily Guitar Theory Routine

Lesson 12 of 40

7th. Chord with the root on the low E string

for
The Church Mode
(Locrian mode)
in (Key of A)

 

 

 

Fretboard

 E 5|-----|--6--|----|--7-|-1-|---|-2-|---|-3|-4|--|-5|--|-6|-
 B 2|-----|--3--|--4-|----|-5-|---|-6-|---|-7|-1|--|-2|--|-3|4
 G -|--7--|--1--|----|--2-|---|-3-|-4-|---|-5|--|-6|--|-7|-1|-
 D 4|-----|--5--|----|--6-|---|-7-|-1-|---|-2|--|-3|-4|--|-5|-
 A 1|-----|--2--|----|--3-|-4-|---|-5-|---|-6|--|-7|-1|--|-2|-
 E 5|-----|--6--|----|--7-|-1-|---|-2-|---|-3|-4|--|-5|--|-6|-
|                                           |
1st.fret                                  12th.fret

 

 

 

Guitar Lesson Facts...

This is a G# Minor 7th. Flat 5 Chord

The root in this case is: 7

The formula is: 7, 2, 4, 6

Compared to the major scale the formula is: 1, b3, b5, b7

Play it with all notes ringing out together.

1=A 2=B 3=C# 4=D 5=E 6=F# 7=G#

Key of: A Major(1) or F# minor(6)

Sundeay = Locrian

= Key of A

Finger Placement

          E  A  D  G  B  E
          |__|__|__|__|__|
          |  |  |  |  |  |
 4th.fret I  |  I  I  |  I
          |__|__|__|__|__|
          |  |  |  |  |  |  
          |  M  |  |  |  |
          |__|__|__|__|__|
          |  |  |  |  |  |  
          |  |  |  |  |  |
          |__|__|__|__|__|
          |  |  |  |  |  |
          |  |  |  |  P  |
          |__|__|__|__|__|
          |  |  |  |  |  |  
          |  |  |  |  |  |
          |__|__|__|__|__|
          |  |  |  |  |  |
I=index M=middle R=ring P=pinky

 

 

 

Guitar Tablature

E |---4--------------------4---------------------------|
B |---7-----------------7-----7------------------------|
G |---4--------------4-----------4---------------------|
D |---4-----------4-----------------4------------------|
A |---5--------5-----------------------5---------------|
E |---4-----4-----------------------------4------------|

 

 

 

Guitar Lesson 12

This is just one sample exercise out of 40 for today.
Visit the GuitarBasics.com Daily Guitar Lesson Menu for free lessons and more information.

 

 

Introduction - Report Errors