Free Daily Guitar Theory Routine

Lesson 12 of 40

7th. Chord with the root on the low E string

for
The Church Mode
(Aeolian)
in the
(Key of Gb)

 

 

 

Fretboard

 E -|--7--|--1--|----|--2-|---|-3-|-4-|---|-5|--|-6|--|-7|-1|-
 B 4|-----|--5--|----|--6-|---|-7-|-1-|---|-2|--|-3|-4|--|-5|-
 G -|--2--|-----|--3-|--4-|---|-5-|---|-6-|--|-7|-1|--|-2|--|3
 D -|--6--|-----|--7-|--1-|---|-2-|---|-3-|-4|--|-5|--|-6|--|7
 A -|--3--|--4--|----|--5-|---|-6-|---|-7-|-1|--|-2|--|-3|-4|-
 E -|--7--|--1--|----|--2-|---|-3-|-4-|---|-5|--|-6|--|-7|-1|-
|                                           |
1st.fret                                  12th.fret

 

 

 

Guitar Lesson Facts...

This is a Eb or D# Minor 7 Chord

The root in this case is: 6

The formula is: 6, 1, 3, 5

Compared to the major scale the formula is: 1, b3, 5, b7

Play it with all notes ringing out together.

1=Gb 2=Ab 3=Bb 4=Cb 5=Db 6=Eb 7=F

Key of: Gb Major(1) or Eb minor(6)

= Aeolian

= Key of Gb

Finger Placement

          E  A  D  G  B  E
          |__|__|__|__|__|
          |  |  |  |  |  |
11th.fret I  |  I  I  I  I
          |__|__|__|__|__|
          |  |  |  |  |  |
          |  |  |  |  |  |
          |__|__|__|__|__|
          |  |  |  |  |  |
          |  R  |  |  |  |
          |__|__|__|__|__|
          |  |  |  |  |  |
          |  |  |  |  |  |
          |__|__|__|__|__|
          |  |  |  |  |  |  
          |  |  |  |  |  |
          |__|__|__|__|__|
          |  |  |  |  |  |
I=index M=middle R=ring P=pinky

 

 

 

Guitar Tablature

E |--11-----------------------11-----------------------|
B |--11-------------------11------11-------------------|
G |--11---------------11--------------11---------------|
D |--11-----------11----------------------11-----------|
A |--13-------13------------------------------13-------|
E |--11---11--------------------------------------11---|

 

 

 

Guitar Lesson 12

This is just one sample exercise out of 40 for today.
Visit the GuitarBasics.com Daily Guitar Lesson Menu for free lessons and more information.

Introduction - Report Errors