Free Daily Guitar Theory Routine

Lesson 12 of 40

7th. Chord with the root on the low E string

for
The Church Mode
(Mixolydian)
in the
(Key of F)

 

 

 

Fretboard

 E 7|--1--|-----|--2-|----|-3-|-4-|---|-5-|--|-6|--|-7|-1|--|2
 B -|--5--|-----|--6-|----|-7-|-1-|---|-2-|--|-3|-4|--|-5|--|6
 G 2|-----|--3--|--4-|----|-5-|---|-6-|---|-7|-1|--|-2|--|-3|4
 D 6|-----|--7--|--1-|----|-2-|---|-3-|-4-|--|-5|--|-6|--|-7|1
 A 3|--4--|-----|--5-|----|-6-|---|-7-|-1-|--|-2|--|-3|-4|--|5
 E 7|--1--|-----|--2-|----|-3-|-4-|---|-5-|--|-6|--|-7|-1|--|2
|                                           |
1st.fret                                  12th.fret

 

 

 

Guitar Lesson Facts...

This is a C Dominant 7 Chord

The root in this case is: 5

The formula is: 5, 7, 2, 4

Compared to the major scale the formula is: 1, 3, 5, b7

Play it with all notes ringing out together.

1=F 2=G 3=A 4=Bb 5=C 6=D 7=E

Key of: F Major(1) or D minor(6)

= Mixolydian

= Key of F

Finger Placement

          E  A  D  G  B  E
          |__|__|__|__|__|
          |  |  |  |  |  |
 8th.fret I  |  I  |  I  I
          |__|__|__|__|__|
          |  |  |  |  |  |
          |  |  |  M  |  |
          |__|__|__|__|__|
          |  |  |  |  |  |
          |  R  |  |  |  |
          |__|__|__|__|__|
          |  |  |  |  |  |
          |  |  |  |  |  |
          |__|__|__|__|__|
          |  |  |  |  |  |  
          |  |  |  |  |  |
          |__|__|__|__|__|
          |  |  |  |  |  |
I=index M=middle R=ring P=pinky

 

 

 

Guitar Tablature

E |--8---------------------8---------------------------|
B |--8------------------8-----8------------------------|
G |--9---------------9-----------9---------------------|
D |--8------------8-----------------8------------------|
A |-10--------10-----------------------10--------------|
E |--8-----8-------------------------------8-----------|

 

 

 

Guitar Lesson 12

This is 1 sample lesson out of 40 for today.
Visit the School of Guitar Theory for more information
.
Introduction - Report Errors