Free Daily Guitar Theory Routine

Lesson 12 of 40

7th. Chord with the root on the low E string

for
The Church Mode
(Mixolydian)
in the
(Key of Ab)

 

 

 

Fretboard

 E -|--6--|-----|--7-|--1-|---|-2-|---|-3-|-4|--|-5|--|-6|--|7
 B -|--3--|--4--|----|--5-|---|-6-|---|-7-|-1|--|-2|--|-3|-4|-
 G 7|--1--|-----|--2-|----|-3-|-4-|---|-5-|--|-6|--|-7|-1|--|2
 D -|--5--|-----|--6-|----|-7-|-1-|---|-2-|--|-3|-4|--|-5|--|6
 A -|--2--|-----|--3-|--4-|---|-5-|---|-6-|--|-7|-1|--|-2|--|3
 E -|--6--|-----|--7-|--1-|---|-2-|---|-3-|-4|--|-5|--|-6|--|7
|                                           |
1st.fret                                  12th.fret

 

 

 

Guitar Lesson Facts...

This is a Eb or D# Dominant 7 Chord

The root in this case is: 5

The formula is: 5, 7, 2, 4

Compared to the major scale the formula is: 1, 3, 5, b7

Play it with all notes ringing out together.

1=Ab 2=Bb 3=C 4=Db 5=Eb 6=F 7=G

Key of: Ab Major(1) or F minor(6)

= Mixolydian

= Key of Ab

Finger Placement

          E  A  D  G  B  E
          |__|__|__|__|__|
          |  |  |  |  |  |
11th.fret I  |  I  |  I  I
          |__|__|__|__|__|
          |  |  |  |  |  |
          |  |  |  M  |  |
          |__|__|__|__|__|
          |  |  |  |  |  |
          |  R  |  |  |  |
          |__|__|__|__|__|
          |  |  |  |  |  |
          |  |  |  |  |  |
          |__|__|__|__|__|
          |  |  |  |  |  |  
          |  |  |  |  |  |
          |__|__|__|__|__|
          |  |  |  |  |  |
I=index M=middle R=ring P=pinky

 

 

 

Guitar Tablature

E |-11-----------------------11------------------------|
B |-11-------------------11------11--------------------|
G |-12---------------12--------------12----------------|
D |-11-----------11----------------------11------------|
A |-13-------13------------------------------13--------|
E |-11---11--------------------------------------11----|

 

 

 

Guitar Lesson 12

This is just one sample exercise out of 40 for today.
Visit the GuitarBasics.com Daily Guitar Lesson Menu for free lessons and more information.

Introduction - Report Errors