Daily Guitar Lessons
      

Lesson 12 of 40

7th. Chord with the root on the low E string

for
The Church Mode
(Mixolydian)
in the
(Key of Db)



Fretboard

 E -|--3--|--4--|----|--5-|---|-6-|---|-7-|-1|--|-2|--|-3|-4|-
 B -|--7--|--1--|----|--2-|---|-3-|-4-|---|-5|--|-6|--|-7|-1|-
 G -|--5--|-----|--6-|----|-7-|-1-|---|-2-|--|-3|-4|--|-5|--|6
 D -|--2--|-----|--3-|--4-|---|-5-|---|-6-|--|-7|-1|--|-2|--|3
 A -|--6--|-----|--7-|--1-|---|-2-|---|-3-|-4|--|-5|--|-6|--|7
 E -|--3--|--4--|----|--5-|---|-6-|---|-7-|-1|--|-2|--|-3|-4|-
|                                           |
1st.fret                                  12th.fret

Guitar Lesson Facts...

This is a Ab or G# Dominant 7 Chord

The root in this case is: 5

The formula is: 5, 7, 2, 4

Compared to the major scale the formula is: 1, 3, 5, b7

Play it with all notes ringing out together.

1=Db 2=Eb 3=F 4=Gb 5=Ab 6=Bb 7=C

Key of: Db Major(1) or Bb minor(6)

= Mixolydian

= Key of Db

Finger Placement

          E  A  D  G  B  E
          |__|__|__|__|__|
          |  |  |  |  |  |
 4th.fret I  |  I  |  I  I
          |__|__|__|__|__|
          |  |  |  |  |  |
          |  |  |  M  |  |
          |__|__|__|__|__|
          |  |  |  |  |  |
          |  R  |  |  |  |
          |__|__|__|__|__|
          |  |  |  |  |  |
          |  |  |  |  |  |
          |__|__|__|__|__|
          |  |  |  |  |  |  
          |  |  |  |  |  |
          |__|__|__|__|__|
          |  |  |  |  |  |
I=index M=middle R=ring P=pinky

Guitar Tablature

E |---4---------------------4--------------------------|
B |---4------------------4-----4-----------------------|
G |---5---------------5-----------5--------------------|
D |---4------------4-----------------4-----------------|
A |---6---------6-----------------------6--------------|
E |---4------4-----------------------------4-----------|

Guitar Lesson 12

This is 1 sample lesson out of 40 for today.
Visit the School of Guitar Theory for more information
.
Introduction - Report Errors